Keith Whitley - When You Say Nothing At All Text Guitar Tab

Learn the song with the online tablature player
When You Say Nothing At All
Keith Whitley

Intro

E------0h2-0---0h2-------0-2-3-2-0-------|
B------3-------3---3---3-----------3-----|
G----2-------------------------------2---|
D--0---------0---------------------------|
A----------------------------------------|
E----------------------------------------|

E------0h2-0---0h2-------0-2-3-2---------|
B------3-------3---3---3---------3-------|
G----2-----------------------------------|
D--0---------0---------------------------|
A----------------------------------------|
E----------------------------------------|

G     D          C             D           G      D  C  D
It's amazing how you can speak right to my heart
G       D        C             D            G    D C D
Without saying a word, you can light up the dark
C                    D
Try as I may I could never explain
G      D             C           D
What I hear when you don't say a thing

Chorus
G                 D             C             D
The smile on your face let's me know that you need me
G                       D           C            D
There's a truth in your eyes saying you'll never leave me
G                 D                C                  D    C D
The touch of your hand says you'll catch me if ever I fall
C               D                       G    D C D
You say it best when you say nothing at all

Verse 2
All alone I can hear people talking outloud
But when you hold me near, you drown out the crowd
Old Mr. Webster could never define
What's being said between your heart and mine

(Chorus x2)