Keller Williams - Best Feeling Text Guitar Tab

Learn song with the online tabulature player
Artist - Keller Williams
Song - Best Feeling

   Bbm      C#       Ab             C#      Ab       Bbm
|---6-------4----|---4----------|---4-------4----|----6------|
|---6-------6----|---4----------|---6-------4----|----6------|
|---6-------6----|---5----------|---6-------5----|----6------|
|---8-------6----|---6----------|---6-------6----|----8------|
|---8-------4----|---6----------|---4-------6----|----8------|
|---6------------|---4----------|-----------4----|----6------|

|----------------|--------------|----------------|-----------|
|----------------|--------------|----------------|-----------|
|----------------|--------------|----------------|-----------|
|---6-------9----|---8------6-8-|---9-------8----|----6------|
|----------------|--------------|----------------|-----------|
|----------------|--------------|----------------|-----------|


Verse:
Ab Bbm Ab Bbm
Ab Bbm Ab Bbm

Chorus:
Gb Ab Db........ Gb Ab Bbm.........
Gb Ab Db........ Gb Ab Bbm.........