Kelly Clarkson - Moment Like This Text Guitar Tab

Learn song with the online tabulature player
sup dudes, this is the first tab im contributing to the community! still am n00b but
hope yu guys enjoy it! :)

il start with the fill-ins :
there has to be 2 guitars playing this song. so the one playing the fill ins plays this.

                          be..     agree..      before..
 |-9-7-6/4-|-1-1h2r1-1-----|-2-1-----|-------------|--------------|
 |---------|-----------2-4-|-----2---|---2-4-8/9-7-|-----------12-|
 |---------|---------------|-------3-|-3-----7/8---|-2-3-5-7-9----|
 |---------|---------------|---------|-------------|--------------|
 |---------|---------------|---------|-------------|--------------|
 |---------|---------------|---------|-------------|--------------|
   *
 |-11-11-11-9-9-9-|
 |----------------|
 |----------------|
 |----------------|
 |----------------|
 |----------------|
*softly played
this..
 |-----------------|
 |-------0-2-4-6-7-|
 |-5h6-3-----------| this is played at the end of the first chorus
 |-----------------|
 |-----------------|
 |-----------------|
remains..
 |-9-9-9-7-6-|
 |-----------|
 |-----------| this is played after the first line in the second verse
 |-----------|
 |-----------|
 |-----------|

now heres the intro :

The guy playing this has to CAPO on the 1st fret.
    Dm7       Bbsus2     Gm7       C2
 |-----1---|---------|---------|---------|
 |-------1-|-----1---|-----3---|-----1---|
 |---2-----|-------3-|-------3-|---0---0-|   x3
 |-0-------|---3-----|---3-----|---------|
 |---------|-1-------|---------|-3-------|
 |---------|---------|-3-------|---------|
                                ends at would you agree?...
then..

its almost a feeling that we've...
    Dm7       Bbsus2    F/A        Gm7
 |-----1---|---------|-----1---|---------|
 |-------1-|-----1---|-------1-|-----3---|   
 |---2-----|-------3-|---2-----|-------3-|   x1
 |-0-------|---3-----|-3-------|---3-----| the guitar plucking kinds of dies 
 |---------|-1-------|---------|---------| out after this.. 
 |---------|---------|---------|-3-------|

its probably strumming onwards after this.. except for the slight fill ins.

there yu go!
Cheers!
if u find any errors or updates please mail me at geeeene2005@gmail.com, and rate it! thanks :))