Kevin Devine - Alabama Acres Text Guitar Tab

Learn song with the online tabulature player
Listen to the strum pattern to get the parts with chords. You also might want to play 
parts of the chords to get the right sound

e|---------------------------3333333333/555555/77777-------------------------|
B|---------------------------3333333333-000000-00000------0-0---1-----1---1--|
G|------0--2/4--0-------0----0000000000-000000-00000------0-0---0-----0---0--|
D|---0h2-----------0h2-------0000000000-000000-----7-5---4-2----2-0h2-2---2--|
A|---------------------------2222222222-----------------------3---------3----|
E|------------------------3--3333333333--------------------------------------|

e|---------------------------------------------------------------------------|
B|------1--1--1--0---0---3333333---------------------------------------------|
G|------0--0--0--0---0---2222222---------------------------------------------|
D|--0h2-2--2----0--------0000000---------------------------------------------|
A|--------3--2-----------0000000---------------------------------------------|
E|-----------------0---2-2222222---------------------------------------------|

Repeat this once again, then play

e|-------------------------------------------3333-33-3-----------------------|
B|----1--1---1-----1---1---1-----333--1-0----0000-00-0-----------------------|
G|----0--0---0-----0---0---0-----222-------0-0000-00-0-----------------------|
D|----0--0---2-0h2-2---2---0-----000---------0000-22-0-----------------------|
A|---0--2--3---------3---2-------000---------2222-33-2-----------------------|
E|----------------------------2--222---------3333----3-----------------------|

This part repeats during the verse, with a little variation towards the end.

I can't figure out the rest of the song, and I know the part in the beginning with the G 
up is the wrong chords, but it sounds almost exactly the same. Hopefully this intro 
inspire someone to finish the rest of the song, I can't figure it out!