Killers - Bones Text Bass Tab

Learn the song with the online tablature player
The Killers - Bones
Well.. this is the way i play it, there may be some little mistakes, or maybe not.
Enjoy it.
Intro/Chorus:(after keyboard riff)

G|-------------------------------------|
D|-------------------------------------|
A|-------------------------------------|
E|-5-55-5-5-55-4567--77--2--2-2-0000---|

G|-------------------------------------|
D|-------------------------------------|
A|-5--5---5-5-5---4-5-6-7-7---7-7-7----|
E|------5-------5-----------7-------77-|
(There's no bass in "We Took a back

Verse
(But I don't really like you...)   road...")

G|-------------------------------------|
D|-------------------------------------|
A|-44444444-55555555-22222222-44444444-|
E|-------------------------------------|

G|-------------------------------------|
D|-------------------------------------|
A|----------55555555-22222222-44444444-|
E|-22222222----------------------------|
Pre-Chorus 1

G|--------------------------------------------|
D|--------------------------------------------|
A|-5--5--5--5--5-4-2-0------------------------|
E|----------------------4-2-22-22--2-00000000-|
Chorus

G|-------------------------------------|
D|-------------------------------------|
A|-------------------------------------|
E|-5-55-5-5-55-4567--77--2--2-2-0000---|

G|-------------------------------------|
D|-------------------------------------|
A|-5--5---5-5-5---4-5-6-7-7---7-7-7----|
E|------5-------5-----------7-------77-|

Verse
(A cinematic vision ensued...)

G|-------------------------------------|
D|-------------------------------------|
A|-44444444-55555555-22222222----------|
E|----------------------------00001111-|

G|-------------------------------------|
D|-------------------------------------|
A|----------55555555-22222222-44444444-|
E|-22222222----------------------------|
(Wait till tommorrow you'll be fine)

G|-------------------------------------|
D|-------------------------------------|
A|-5--5--5-5--5--5-5--7--7--7-7--7-7-7-|
E|-------------------------------------|
(I always hear them...)

G|-------------------------------------|
D|-------------------------------------|
A|-44444444-55555555-22222222-44444444-|
E|-------------------------------------|

G|-------------------------------------|
D|-------------------------------------|
A|----------55555555-22222222-44444444-|
E|-22222222----------------------------|
Pre-Chorus 2

G|--------------------------------------------------|
D|--------------------------------------------------|
A|-5--5--5--5--5-4-2-0------------------------------|
E|----------------------4-2-22-22--2-00000000000000-|
Chorus

G|-------------------------------------|
D|-------------------------------------|
A|-------------------------------------|
E|-5-55-5-5-55-4567--77--2--2-2-0000---|
x2

G|-------------------------------------|
D|-------------------------------------|
A|-5--5---5-5-5---4-5-6-7-7---7-7-7----|
E|------5-------5-----------7-------7--|

Bridge
Never had a lover...)

G|------------------|--------------------------|
D|------------------|--------------------------|
A|----4-----2-------|----4-----22222222222222--|
E|-2-----0----------|-2-----0------------------|

Chorus
bass and keyboard only)

G|---------------------------------------|
D|---------------------------------------|
A|-0~---------------2~-------------------|
E|---------------------------2----0------|

G|---------------------------------------|
D|---------------------------------------|
A|-5~---------------7~-------------------|
E|---------------------------------------|

G|---------------------------------------|
D|---------------------------------------|
A|-0000000000000000-22222222-------------|
E|---------------------------2222-0000---|

G|---------------------------------------|
D|---------------------------------------|
A|-5555555555555555-777777777777777777---|
E|---------------------------------------|
Final Chorus:

G|---------------------------------------|
D|---------------------------------------|
A|---------5-4-2-------------------------|
E|-5--5-5--------5--0--0-0---2--2-2--0-0-|
x2

G|---------------------------------------|
D|---------------------------------------|
A|-5--5----5-4-2----7--7----5-4-2--------|
E|------5--------5-------7--------5------|
Outro

G|----|
D|----|
A|-0~-|
E|----|