Killers - Sams Town Text Bass Tab

Learn the song with the online tablature player
Intro
|---------------------------------|    |---------------------------------|
|---------------------------------| x2 |---------------------------------|
|-2-2-2-2-2-2-2-2-2-2-2-2-2-2-2-2-|    |-4-4-4-4-4-4-4-4-4-4-4-4-4-4-4-4-|
|---------------------------------|    |---------------------------------|

|---------------------------------|    |---------------------------------|
|---------------------------------|    |---------------------------------| x2
|-4-4-6-6-7-7-9-9-7-7-6-6-4-4-2-2-|    |-0-0-0-0-0-0-0-0-0-0-0-0-0-0-0-0-|
|---------------------------------|    |---------------------------------|

|---------------------------------|
|---------------------------------| x2
|---------------------------------|
|-2-2-2-2-2-2-2-2-2-2-2-2-2-2-2-2-|

(Keys Break)

|------------------------------|
|------------------------------|
|-0----4----------0----------4-|
|-----------2----------2-------|

Verse
|-----------------------------------------------------------------|
|-----------------------------------------------------------------| x2
|-0-0-0-0-4-4-4-4---------4-4-4-4-0-0-0-0---------4-4-4-4---------|
|-----------------2-2-2-2-----------------2-2-2-2---------2-2-2-2-|

|-------------------------------------------------------------------------|
|-------------------------------------------------------------------------|
|-7-7-7-7-9-9-9-9-14-14-14-14-12-12-12-12-5-5-5-5-7-7-7-7-4-4-4-4-5-5-5-5-|
|-------------------------------------------------------------------------|

|-----------------------------------------------------------------|
|-----------------------------------------------------------------|
|-----------------2-2-2-2-0-0-0-0-5-5-5-5-7-7-7-7-4-4-4-4-4-4-4-4-|
|-0-0-0-0-2-2-2-2-------------------------------------------------|

|---------------------------------|
|---------------------------------|
|-----------------4-4-4-4-4-4-4-4-|
|-0-0-0-0-0-0-0-0-----------------|

Chorus
|-----------------------------------------------------------------|
|-----------------------------------------------------------------|
|-----------------4-4-4-4-4-4-4-4-5-5-5-5-7-7-7-7-----------------|
|-2-2-2-2-2-2-2-2---------------------------------5-5-5-5-4-4-4-4-|

|-------------------------------------------------------6---------|
|----------------------------------------------------6-----6------|
|-----------------4-4-4-4-4-4-4-4-5-5-5-5-7-7-7-7-4-----------4---|
|-2-2-2-2-2-2-2-2-------------------------------------------------|

|-----------------------------------------------------------------|
|-----------------------------------------------------------------|
|-----------------4-4-4-4-4-4-4-4-5-5-5-5-7-7-7-7-----------------|
|-2-2-2-2-2-2-2-2---------------------------------5-5-5-5-4-4-4-4-|

|-----------------------------------------------------------------|
|-----------------------------------------------------------------|
|-2-2-2-2-2-2-2-2-2-2-2-2-2-2-2-2-4-4-4-4-4-4-4-4-4-4-4-4-4-4-4-4-|
|-----------------------------------------------------------------|

Pre Verse:
|------------------------------|
|------------------------------| x2
|-0----4----------0----------4-|
|-----------2----------2-------|

Verse 2
repeat verse 1)

Chorus
repeat chorus)

|---------------------------|
|---------------------------|
|-5--5--5--5--7--7--7--7~~~~|
|---------------------------|

"I see London..."
|------------------|
|------------------| x4
|-0--4---4-0-5-4-7-|
|------2---------0-|

"...Now!"
    |--------------------------|
    |--------------------------| Repeat
    |-9--4/9--4/9--4/9-4-6-8-9-| to end
    |--------------------------|