Kino - Sledi Za Soboj Text Guitar Tab

Learn the song with the online tablature player
Intro/Chorus (0:00, 0:57, 1:59):
G--------3h5---------------------------|-
D--------------------------------------|-
A-3--3-3-----3--3-3-3------------------|-
E---------------------4--4-4-4\1-1-1-1-|-

G--------3h5----------------------------|-
D---------------------------------------|-
A-3--3-3-----3--3-3-3-------------------|-
E---------------------4--4-4-4\3/4-3-1-1|-

G--------3h5---------------------------|-
D--------------------------------------|-
A-3--3-3-----3--3-3-3------------------|-
E---------------------4--4-4-4\1-1-1-1-|-

G--------3h5----------------------------|-
D---------------------------------------|-
A-3--3-3-----3--3-3-3-------------------|-
E---------------------4--4-4-4\3/4-3-1-1|-

Regular ending:
G--------3h5--------------|
D-------------------------|
A-3--3-3-----3--3-66-66-6-|
E-------------------------|

Pre-solo ending:
G--------3h5--------|
D-------------------|
A-3--3-3-----3--3-3-|
E-------------------|

Verse
0:29, 1:32, 2:50):
G--------------------------------------------------------------------|-
D--------------------------------------------------------------------|-
A-3--3-3--3-3--3-------3--3-3--3-------3-6-66\-----------------------|-
E----------------3-6-6-----------3-6-6---------1--1-1-3-4-4--4-4-4-6-|-

G--------3h5------------|-
D-----------------------|-
A-3--3-3-----3--3-------|-
E-----------------3-6-6-|-

G--------------------------------------------------------------------|
D--------------------------------------------------------------------|
A-3--3-3--3-3--3-------3--3-3--3-------3-6-66\-----------------------|
E----------------3-6-6-----------3-6-6---------1--1-1-3-4-4--4-4-4-6-|

Solo
2:34):
G-------------------------------|-
D-------------------------------|-
A----------------------66-6-6-3-|-
E-4-4--4-4-4--4-4-4--4----------|-

G-------7h8-5---------------|-
D---5-8-------5-------------|-
A-3-------------5-----------|-
E-----------------0-1-1-3-3-|-

G-----------------------------------------------------|
D-------------------------------555-------------------|
A----------------------66-6-6-3-----666-333-3---------|
E-4-4--4-4-4--4-4-4--4------------------------3-3-6-6-|

Ending
G--------3h5-5--------------------------|-
D--------------5------------------------|-
A-3--3-3---------6-3-3------------------|-
E----------------------4--4-4-4\1-1-1-1-|-

G--------3h5-5---------------------------|-
D--------------5-------------------------|-
A-3--3-3---------6-3-3-------------------|-
E----------------------4--4-4-4\3/4-3-1-1|-