Kristet Utseende - Club Raki Turkye Text Guitar Tab

Learn the song with the online tablature player
vers:

E-------------
B-------------
G-------------
D-2--10--7--3-
A-2--10--7--3-
E-0--8---5--1-

ref:

E-------------------
B-------------------
G-------------------
D-7--2--10--5--2--5-
A-7--2--10--5--2--5-
E-5--0--8---3--0--3-

Intro solo

e|---------------------------------------|
B|--------8-----------8---------8--------|
G|-7-9-9----9-7-7-9-9---9-7-7-9---9------| spela 3ggr
D|---------------------------------------|
A|---------------------------------------|
E|---------------------------------------|

e|-------------------|
B|-------------------|
G|-10-9-7-9-10-9-----|
D|-------------------|
A|-------------------|
E|-------------------|

Club raki turkye

över dimmornas bro till ankhara

med allt som är syndfullt i tankarna

jag fördas naken allt är som sig bör

längst karpatiska stigar och vargapass

med sexiga stön på rumänska dass

jag visar staken allt är som sig bör

club raki turkyne full och dryg

club raki turkyne jag dricker brännvin mest i smyg

in i skuggornas istanbul

med allt som är nyckfullt i gränderna

jag fördas naken allt är som sig bör

med flottiga pipor och falska pass

och sköna runk på turkiska dass

jag visar baken allt är frid och fröjd