Kudai - Ya Nada Queda Chords

Coro Riff
 
No chord
    
Standard guitar tuning:
E
A
D
G
B
E
No capo
 -1-------  -5-------  -6-------  -6-------  -5-------
 -1-------  -5-------  -6-------  -6-------  -6-------
 -2-------  -5-------  -7-------  -6-------  -7-------
 -3-------  -7-------  -8-------  -8-------  -7-------
 -3-------  -7-------  -8-------  -8-------  -5-------
 -1-------  -5-------  -6-------  -6-------  -5-------
Puedo oir tuFa voz diciendo el adios Lam destruyendo toda la ilusion. La# Ya no quiero hablar ni quiero pensar La#m ni siquiera puedo imaginar. Rem Lam Que al fin te iras de mi lugar La# La#m si hay alguien mas no puedo ni pensar que... Coro: Fa Lam La# Ya nada queda se fue nuestro amor La#m Fa las calles desiertas sin luz sin sol Lam La# se fue el calor de amarte ya nada La#m Fa queda de nuestro amor.
-------------------------------------------------| (//// mantienes un breve tiempo
----13-11-10-----13-11-10------------------------|      la nota)
------------10-----------10-12-14-15////14-------|
-------------------------------------------------|
-------------------------------------------------|
-------------------------------------------------|
Miro y ya no eFastas, nadie a quien hablar Lam cae la lluvia y no queda mas. La# Puedo recordar en aquel lugar, La#m cuando nos miramos al pasar. Rem Lam Sin ti no hay mas solo el final, La# La#m sin ti no hay mas solo quiero llorar y es que... Coro: Fa Lam La# Ya nada queda se fue nuestro amor La#m Fa las calles desiertas sin luz sin sol Lam La# se fue el calor de amarte ya nada La#m Fa queda de nuestro amor.

Solo

-------------------------------16-15-13-11-13-11--10-11-8--7--8--10-|
----------------13////15-16////-------------------------------------|
----12////-14-15////------------------------------------------------|
--------------------------------------------------------------------|
--------------------------------------------------------------------|
--------------------------------------------------------------------|
Fa Lam La# Ya nada queda se fue nuestro amor La#m Fa las calles desiertas sin luz sin sol Lam La# se fue el calor de amarte ya nada La#m Fa queda de nuestro amor. Fa Lam La# Aun puedo sentirte, aun puedo soñarte aqui La#m puedo amarte, ser de ti, amor. Fa Lam La# La#m Tus besos me abrazan, tus manos cerca de mi aja Fa Lam La# La#m Na,na,na,na,na . . . Fa Lam La# La#m (hasta el final de la cancion)

All Content on this page is the property of the copyright owner of the original composition.