Lemonheads - Into Your Arms Chords

Main Riff
Main Riff
 
         
         
         
         
         
X
X
1
3
2
2 fr
         
         
         
         
         
X
4
3
1
2
1
5 fr
         
         
         
         
         
X
1
2
3
4
1
5 fr
         
         
         
         
         
X
1
4
4
4
X
7 fr
         
         
         
         
         
4
3
1
1
1
X
7 fr
         
         
         
         
         
3
2
1
1
1
4

10 fr
         
         
         
         
         
1
3
4
2
1
1
12 fr
         
         
         
         
         
X
X
1
3
4
3
5 fr
         
         
         
         
         
X
X
         
         
         
         
         
3
2
4
3 fr
         
         
         
         
         
1
3
4
2
1
1
         
         
         
         
         
2
1
3
4
3 fr
         
         
         
         
         
X
X
3
2
1
1
5 fr
         
         
         
         
         
X
X
1
3
4
3
7 fr
         
         
         
         
         
X
4
3
1
2
1

10 fr
         
         
         
         
         
X
1
2
3
4
X
10 fr
         
         
         
         
         
X
1
3
3
3
1
12 fr
         
         
         
         
         
3
2
1
1
1
4
         
         
         
         
         
2
3
3 fr
         
         
         
         
         
X
X
2
4
1
7 fr
         
         
         
         
         
X
1
3
4
2
1
2 fr
         
         
         
         
         
X
X
1
3
4
2
3 fr
         
         
         
         
         
X
3
2
4
1
4 fr
         
         
         
         
         
X
4
3
1
2
X

12 fr
         
         
         
         
         
1
3
4
1
1
1
         
         
         
         
         
X
X
1
2
4 fr
         
         
         
         
         
X
2
1
1
4
3
5 fr
         
         
         
         
         
X
1
3
3
3
3
7 fr
         
         
         
         
         
4
3
1
1
1
1
No chord
    
Standard guitar tuning:
E
A
D
G
B
E
No capo

Fo D

DI know a place where I can Ggo when I'm aEmlone iGnto your aEmrms whoa iGnto your aEmrms I can gDo D6 I know a place that's safe and wGarm from the cEmrowd iGnto your aEmrms whoa iGnto your aEmrms
-0----0--------3-------------2-----------------------
-2--2----2-----0----0----3---3-----------------------
-2---------2---0--0---0--0---2-----------------------
-2---------0---0---------0---------------------------
-0---------0---2-------------------------------------
And If I should fall ...
-0----0------3-----------0-----------0----0------0----0--------
-2--2---2----0----0---3--0----0------2--2---2----2--2---2------
-2--------2--0--0---0-0--0--0---0----2--------2--2--------2----
-2--------0--0--------0--2--------2--2----------------------2--
-0--------0--2-----------2-----------0-------------------------
I know I won't be alone.

Solo 1

E-------------------------------------------------
B-------------------------------------------------
G-7-9-11---9-11-12---19---18-16-16-14---11-9-11-9-
D---0-0----0-0--0----0----0--0--0--0--------------
A-------------------------------------------------
E-------------------------------------------------
E--------------------------------------
B--------------------------------------
G-------------------9-11-9-11-12-14-14-
D--12-11-------9-12--------------------
A--------12-12-------------------------
E--------------------------------------

Solo 2

-0-0-0--0----0-----------14/16----

All Content on this page is the property of the copyright owner of the original composition.