Lenny Kravitz - The Resurrection Text Guitar Tab

Learn the song with the online tablature player
Date: Thu, 30 May 96 17:44:13 0100
From: Felix Valado Pomarinho


The Resurrection
Lenny Kravitz

This is not an exact transcprition but takes after the original.

There are four parts:

Part A:

---0----------------x---------------0----------------1-------------------|
---1----------------3---------------1----------------3-------------------|
---0---(3)----------2----(3)--------0----(3)---------2----(3)------------|
---2----------------0---------------2----------------0-------------------|
---x--------------------------------3------------------------------------|
---3--------------------------------x------------------------------------|

---0----------------3---------------3--2--3--2--3--3--2--2-------------|
---1----------------3---------------3--3--3--3--3--3--3--3-------------|
---0---(3)----------2---(3)---------2--2--2--2--2--2--2--2-------------|
---2----------------0---------------0--0--0--0--0--0--0--0-------------|
---x-------------------------------------------------------------------|
---3-------------------------------------------------------------------|

The parentheses mean strum (n) more times.

Part B:

---1---1--x--1--x--1--x-x-x-------1------------------------------------|
---3---3--x--3--x--3--x-x-x-------2------------------------------------|
---2---2--x--2--x--2--x-x-x-------2------------------------------------|
---0---0--x--0--x--0--x-x-x-------0------------------------------------|
-----------------------------------------------------------------------|
-----------------------------------------------------------------------|
                                  Strum this chord just like the last

---1------------------------------1--1--1--1---------------------------|
---1------------------------------1--1--0--0---------------------------|
---2------------------------------2--2--2--2---------------------------|
---0------------------------------0--0--0--0---------------------------|
-----------------------------------------------------------------------|
-----------------------------------------------------------------------|
   Idem

Part C:

It's very similar to part B.

---1---1--x--1--x--1----1-1-------1------------------------------------|
---3---3--x--3--x--3----0-0-------2------------------------------------|
---2---2--x--2--x--2----x-x-------2------------------------------------|
---0---0--x--0--x--0----2-3-------0------------------------------------|
-----------------------------------------------------------------------|
-----------------------------------------------------------------------|
                                  Strum this chord just like the last

---1------------------------------1--1--1--1---------------------------|
---1------------------------------1--1--0--0---------------------------|
---2------------------------------2--2--2--2---------------------------|
---0------------------------------0--0--0--0---------------------------|
-----------------------------------------------------------------------|
-----------------------------------------------------------------------|
   Idem

Part D:

The chords sequence: G A D  | G A D4sus D
(twice).

Song:

Part A: (No lyrics)
Part A: If you could feel what I could feel...
Part A: If you could hear what I could hear...
Part B: (No lyrics)
Part C:
Part C:
Part C: The Resurrection is here to stay...
Part A: The Resurrection is here to stay...
Part A: The Resurrection is here to say...
Part B: Look what he's done to me...
Part B: He walked the righteous path...
Part D: (No lyrics)

Pause

The rest is part A played forever (well, not forever).