Levellers - The Players Text Guitar Tab

Learn song with the online tabulature player
Track: The Player
Artist: The Levellers
Album: The Levellers
Bassist: Jeremy Cunningham
Tabed by: dirtydavey @ poortwistedme31@hotmail.com

Another underated song from an underated band. The UKs best live act for years.

Listen for the timings.

Verse
G ------------------------|
D ---5-----------5--------|
A ---------3--------3-0---|
E -3---3-1---1/3--3----1--|


Chorus
G -------------------|
D --------------3202-|
A ---5-3202---5------|
E -3--------3--------|


Middle.
G -----------------------|
D --5-----------5--------|
A --------3--------330---|
E -3--3-1---1/3--3-----1-|

Verse.
Chorus.
Middle.

End on
G ----
D ----
A ----
E -3--