Ligabue - Voglio Volere Text Guitar Tab

Learn song with the online tabulature player
Luciano Ligabue – Voglio Volere Guitar Solo

1/02/2008 Italy - Borgomanero
Posed By: Guitar Hero (Tia)

e---------7/8/7------------------------------------------------|
b---8-----------8----6-8---6-8-----------------------/8--------|
g------7-----------7-------------5-7---------/5/4-5/4---5------|
d--------------------------------------5-7-5-------------------|
a--------------------------------------------------------------|
e--------------------------------------------------------------|

e---------------------------------------------------------|
b-------------------------------------------8-------------|
g---5/7—4/5---12---------5-7^^7-5-7----5/7/9---9----------|
d------------Harm-----/7-------------/7-------------------|
a---------------------------------------------------------|
e---------------------------------------------------------|

e---10-----10--------15^-13/15-13/15-15^-13/15-13-------------|
b------8-------8----------------------------------------------|
g--------9-------9--------------------------------------------|
d-------------------------------------------------------------|
a-------------------------------------------------------------|
e-------------------------------------------------------------|

e----------------------15-17-20---------------------------|
b---15^-13-15----13-15-------------13/15-15-15/18---------|
g-------------14------------------------------------------|
d---------------------------------------------------------|
a---------------------------------------------------------|
e---------------------------------------------------------|

e-----------------------------------------------------------|
b---18-18/20-20^20-18-20---18---15-----13-------------------|
g--------------------------------------------12-------------|           fade out
d-----------------------------------------------------------| Harm
a-----------------------------------------------------------|
e-----------------------------------------------------------|

The chords during the solo are: Dm F C G