Limp Bizkit - Behind Blue Eyes (The Who Cover) Text Guitar Tab

Learn the song with the online tablature player
                        Limp Bizkit - Behind Blue Eyes

intro/verse 2 & 3/bridge thingy
e---------0---------------0---------------0---------------0------------
B-----------0---------------0---------3-----3---3-----3-----3---3-----3
G-------0-----0---------0-----0-----2---2-----2-----2---2-----2--------
D-----2---------0-----0---------0-0---------------0-----------------2--
A---2---------------2---------------------------------------------3----
E-0---------------3----------------------------------------------------

e---0---------------0---------------0----------------0-------I
B-----3---3-----3-----3---3-----0-----0---0------0-----0---0-I
G-0-----0---------0-----0---------0-----0----------0-----0---I
D-------------2---------------2----------------2-------------I
A-----------3---------------0----------------0---------------I
E------------------------------------------------------------I

verse 1/outro
e---------0---------------0---------------0---------------0------------
B-----------0---------------0---------3-----3---3-----3-----3---3-----3
G-------0-----0---------0-----0-----2---2-----2-----2---2-----2--------
D-----2---------0-----0---------0-0---------------0-----------------2--
A---2---------------2---------------------------------------------3----
E-0---------------3----------------------------------------------------

e---0---------------0-----000--0-0-----I
B-----3---3-----3-----3---222--2-2-----I
G-0-----0---------0-----0-222--2-2-----I
D-------------2-----------222--2-2-----I
A-----------3-------------000--0-0-----I
E--------------------------------------I

Chorus
         C D                   G
But my dre-ams they aren't as empty

       C         D        E
As my conscience seems to be

        Bm            C
I have hours, only lonely

            D                      A
My love is vengeance that's never free

song order:
intro      x1
verse 1    x2
chorus     x1
verse 2    x2
chorus     x1
bridge     x2
verse 3    x2
chorus     x1
outro      x1

And there it is. Enjoy!