Linkin Park - One Step Closer Text Guitar Tab

Learn the song with the online tablature player
tuned down one half step drop D

-0--^5--^7------8--^7--0--3---------------------------------------------------
   Riff 2
-0--0--0--12--10--10-\--7--7--10--10--5--5--7--7--3--3------------------------
-0--0--0--12--10--10-\--7--7---8---8--5--5--7--7--1--1------------------------
-0--0--0--12--10--10-\--7--7---8---8--5--5--7--7--1--1------------------------
    Riff 5

-1--0--x--x--x--0--3--1--0--6--0--3-------------------------------------------
-1--0--x--x--x--0--3--1--0--6--0--3-------------------------------------------
-1--0--x--x--x--0--3--1--0--6--0--3-------------------------------------------
    Riff 5 second time

-1--0--x--x--x--0--3--1--0--1---1--0------------------------------------------
-1--0--x--x--x--0--3--1--0--1---1--0------------------------------------------
-1--0--x--x--x--0--3--1--0--1---1--0------------------------------------------
                           [-- P.M.--]