Linkin Park - Shadow Of The Day Text Guitar Tab

Learn song with the online tabulature player
Half step down

Yeah, shadow of the day kicks ass! i love the song and the guitar solo(s)

~ = Vibrate
PM (...) =Palm mute all
B=Bend
/=Slide up
Just Palm mute at the bridge/talpiece of the guitar to get the sound.

 Updated: 8/3/2007 Thanks to JL Sevenfold

You know..... some people argue that there is a "quiet" guitar played b4 the solo and
say there isn't...or theye can't hear it....so...... if you watch them live or talk to
figure it out. And, some people say its half step tuning...and other say its Drop D 
me....i use both sometimes....but it says better in Drop D...lol...so play it however
you want to...or wut ever sounds better to you

;)


Quiet guitar:57 SECONDS
Eb---------------------------------------------|
Bb---------------------------------------------|
Gb---------------------------------------------|
Db---------------------------------------------|  x2
Ab-22222222--44444444--------------------------|
Db---------------------44444444--00000--222----|

PM..........................................

Eb-------------------------------------------------|
Bb-------------------------------------------------|
Gb-------------------------------------------------|
Db-------------------------------------------------|  x2
Ab-22222222----------------------------------------|
Db----------22222222-----------44444444--00000--222|


PM............................................


Guitar 1 Solo:2:49

Eb|-------|---------------------7----|
Bb|---5---|-7---7---7---7---7--------|
Gb|-4---4-|---4---4---4---4---4------|
Db|-------|--------------------------|
Ab|-------|--------------------------|
Db|-------|--------------------------| x3


then:

Eb|--------------------------------------|
Bb|-5---5----5---4---4---4---4---4---4---|
Gb|---4---4----4---4---4---4---4---4---4-|
Db|--------------------------------------|
Ab|--------------------------------------|
Db|--------------------------------------|


Repeat the first riff 4 times!

Guitar 2 Solo comes in (3:24-4:00) :Guitar 1 is played behind the one

eb|------------------------------19-------|
Bb|--17--19--19--19--19--19--17------17---|
Gb|16--16--16--16--16--16--16--16--16--16-|  do one time then
Db|---------------------------------------|
Ab|---------------------------------------|
Db|---------------------------------------|

eb|------------------------19-------|
bb|19--19--19--19--19--17------17---|
gb|--16--16--16--16--16--16--16--16-| repeat till the end of the song
db|---------------------------------|
ab|---------------------------------|
db|---------------------------------|




Guitar 1:

eb|---------------------------------------|
Bb|---------------------------------------|
Gb|-44444444------------------------------|
Db|-44444444-44444444-66666666-22222444---|
Ab|-22222222-44444444-66666666-22222444---|
Db|----------22222222-44444444-00000222---|

End song on:bending and then virbarte and just slide up
Eb|-11b~/--------|
Bb|--------------|
Gb|--------------|
Db|--------------|
Ab|--------------|
Db|--------------|


Well, that's it!, that's how you play Shadow of the day, really nice solo...if you have
corrections or anything please let me know!!
Comment me please!

Have fun and enjoy!!!

;)