Lionel Richie - Stuck On You Text Guitar Tab

Learn the song with the online tablature player
Artist: Lionel Richie
Song: Stuck on you

Intro

 F         Am        Bb           C
-------1-|-------0-|-------1----|-------0------|
-------1-|-------1-|-------3----|-------1------|
-----2---|-----2---|-----3----3-|-----0----0---|
---3-----|---2-----|---3--------|---2--------2-|
-3-------|-0-------|-1----------|-3------------|
---------|---------|------------|--------------|

F          Am           Bb
-------1-|-------0--1-|-------1-----|-----------------|
-------1-|-------1----|-------3-----|-1-3-5-6-8--(10)-|
-----2---|-----2------|-----3---3---|-2-3-5-7-9-------|
---3-----|---2--------|---3-------3-|-----------------|
-3-------|-0----------|-1-----------|-----------------|
---------|------------|-------------|-----------------|

F         Am             Bb                      C                      F

 Stuck on you.  Got this feelin' down deep in my soul that I just can't lose.

          Am    Bb    C

Guess I'm on my way.

F           Am              Bb                     C                          F

 I needed a friend, and the way I feel now I guess I'll be with you 'till the end.

          Am    Bb    C                  F

Guess I'm on my way.    Mighty glad you stayed.

F   Am   Bb   C   F   Am   Bb   C

F          Am          Bb                        C                      F

  Stuck on you. Been a fool to long I guess it´s time for me to come on home

          Am    Bb    C

Guess I'm on my way.

F            Am           Bb                       C                     F

  So hard to see, that a woman like you could wait around for a man like me.

          Am    Bb   C                  F

Guess I'm on my way.   Mighty glad you stayed.

F   Am   Bb   C   F   Am   Bb   C

(not sure about this one right here)

Bridge

Bb      C              F        Am    Dm         C

Oh I'm leavin' on that midnight train tomorrow.

Bb    C                    F    Am   Dm   C

And I know just where I'm goin'

Bb                  C                  F          Am  Dm

  I've packed up my troubles and I've thrown them all away.

       Bb                                           C

"cause this time little darlin', I'm comin' home to stay.

EnJoY
the_swede a.k.a tangens