Los Piojos - Ando Ganas Chords

 
No chord
    
Standard guitar tuning:
E
A
D
G
B
E
No capo
   rem    remsus4rem    rem9   Do     Do9    Do     Do9
Do#7
|---1------3------1------0------0------0------0------0--------------|------|----
|---3------3------3------3------1------3------1------3--------------|---2--|----
|---2------2------2------2------0------0------0------0--------------|---4--|----
|---0------0------0------0------2------2------2------2-----2h3p2p0--|---3--|----
|-------------------------------3------3------3------3--------------|---4--|----
|-------------------------------------------------------------------|------|----
second guitar segunda guitarra - intro
-8--8--8--8--8--8--3--5--|--8--8--8--8--8--8-----------|------------------------
-------------------------|--------------------8--8--5--|------------------------
-------------------------|-----------------------------|------------------------
-------------------------|-----------------------------|------------------------
-------------------------|-----------------------------|------------------------
-------------------------|-----------------------------|------------------------
second guitar - second strophe - segunda guitarra - 2da estrofa
-------------------------------|----------------------------------|-------------
-------5--6--7--6--5-----5-----|----------5--6--8--6--5-----5-----|--8--8--8----
-7--7-----------------7-----5--|--5h6--6-----------------7-----5--|--7--7--7----
-------------------------------|----------------------------------|-------------
-------------------------------|----------------------------------|-------------
-------------------------------|----------------------------------|-------------
------------------|-------------------------------------------------------------
6--6--6--5--------|-------------------------------------------------------------
5--5--5--5--7--5--|-------------------------------------------------------------
------------------|-------------------------------------------------------------
------------------|-------------------------------------------------------------
------------------|-------------------------------------------------------------
----5h8--- Hammeron ----(8)--- Ghost Note ----5/8--- Slide Up -----x---- Dead Note ----5\8--- Slide Down ----------
----------                            ||------|| Repeat Start & End
----5~~~-- Vibrato                    ||*----*||
----------                            ||*----*||
----------                            ||------||
Rhythm: w = whole note W = dotted whole h = half note H = dotted half q = quarter note Q = dotted quarter e = eighth note E = dotted eighth s = sixteenth note S = dotted sixteenth ^ = triplet Lyrics [Letra] Ando ganas de encontrarte cuanto lejos que estas de aca ando ganas de encontrarte ando lejos mas no me da, no me da llora, llora, llora mi pena de amor llora, llora, llora mi pena por vos llora, llora, llora mi pena de amor y amale. a mi si que me gustan tus piernas mecerse como si fueran olas. Por lo que se ve me gusto tu mar y tu canoa. Do#7 ando ganas de encontrate de una buena vez por todas el invierno largo se fue y ya cambiaron las modas. Larare, solo una cosa te digo Larare, yo necesito un abrigo Larare, que en esta tierra hace frio Larare, si no estas al lado mio Larare, y como vos no hay ninguna Larare, no brilla tanto la luna Larare, ando ganas de encontrarte Larare, quiero llevarte pa'marte. Llora, llora, llora, llora.

All Content on this page is the property of the copyright owner of the original composition.