Louis Armstrong - A Kiss To Build A Dream On Text Guitar Tab

Learn song with the online tabulature player
[G]
Give me a kiss to build a dream on
            [D]
And my imagination will thrive upon that kiss

Sweetheart, I ask no more than this
                  [G]
A kiss to build a dream on

------------------------------------------
The entire song repeats those two chords. The Tabs for the song are:

-------------------------------------------------------------------------|
-------------------------------------------------------------------------|
-------------------------------------------------------------------------|
5-0--2-4-5-4-2-5-0--2-4-5-4-2-0------------------------------------------|
--------------------------------0-2-3-5-3-2-5--5-0-2-3-5-3-2-5-0--2-3-2-5|
-------------------------------------------------------------------------|


----------------------|
----------------------|
----------------------|     repeat as many times as you want...
--------------0-2-4-5-|
2-0-------0-2---------|
----3---3-------------|