Lucero - The Mountain Chords

 
         
         
         
         
         
1
3
4
2
1
1
5 fr
         
         
         
         
         
X
4
3
1
2
1
3 fr
         
         
         
         
         
X
X
1
2
4
3
         
         
         
         
         
X
X
3
2
1
1
8 fr
         
         
         
         
         
X
1
3
3
3
1
10 fr
         
         
         
         
         
4
3
1
1
1
X

10 fr
         
         
         
         
         
3
2
1
1
1
4
No chord
    
Standard guitar tuning:
E
A
D
G
B
E
No capo
e---2----------2---------2-----------2-------------------2--------2------------|
B---3----------3---------3-----------3-----------3-------3--------3------------|
G---0h2--------2---------0h2---------2-----------0-------0h2------2------------|
D---0----------0---------0-----------0-----------2-------0--------0------------|
A------------------------------------------------3-----------------------------|
E------------------------------------------------------------------------------|
All the verses have the same pattern

FF

---------------------------------------
Her daddy lost most everything
On horses, whiskey, and wedding rings
A little work and luck my friend
A--------------------------G--------------------------D
I'm gonna buy that mountain back again California to Tennessee Fortune has not yet found me Empty hands and leather skin Won't buy that mountain back again
G--------------------------------------------
Endless nights, Longer roads
None of which have yet led home
G-----------------------------------------------RIFF 1X
C'mon darlin keep your promise true
G-------------------------------------------------
Another drink, Another job
And then it's home to you my love
G-----------------------------------------------
Gonna buy that mountain back for you

Riff 2x

Back for you...
A-------------------G----------------------------D
Cause if I don't you're an awful lot to lose When my home again I see Gonna buy that mountain for you and me Uphill I'll make the rivers climb You can swim with the stars in the fading light Sleep by the river on that mountain high Endless nights, Longer roads None of which have yet led home C'mon darlin keep your promise true Another drink, Another job Then it's home to you my love Gonna buy that mountain back for you Back for you... Cause if I don't it's an awful lot If I don't it's an awful lot If I don't you're an awful lot to lose Gonna buy that mountain back for you Work these roads until I do

All Content on this page is the property of the copyright owner of the original composition.