Lucio Dalla - Tu Non Mi Basti Mai Text Guitar Tab

Learn the song with the online tablature player
Lucio Dalla - Tu non mi basti mai

INTRO

E--------------------------------------------------|
B--------------------------------------------------|
G--------------------------------------------------|
D--------------------------------------------------|
A--3----5-3--2-3---5-3--2-3---5-3--2-3---5-3--2-3--|
E--------------------------------------------------|

Verse

E--------------------------------------------------|
B--------------------------------------------------|
G--------------------------------------------------|
D--2-------2---------2-------2---------------------| 3X
A----5-3-5---3---------5-3-5---3-------------------|
E--------------------------------------------------|

E------------------------|
B------------------------|
G------------------------|
D--2---------------------|
A----3---5-3---5-3---2-3-|
E------------------------|