Lucky Boys Confusion - Dumb Pop Song Text Guitar Tab

Learn song with the online tabulature player
----------------------------------------------------------------------------
                          Dumb Pop Song - Lucky Boys Confusion
----------------------------------------------------------------------------
Tabbed by: adslam3
I saw this requested in the forums so I am trying to do this by memory.
I haven't played it in a while so if you find anything off, let me know
and I'll fix it and give you the credit.
Enjoy.

Tuning: Standard
Intro (not sure on this part)
e|---------------------------------------------------------------------------|
B|------------3---3~---------------------------------------------------------|
G|--2---2~------2------2---2---2---------------------------------------------|
D|----2-----0------------2---------2-----------------------------------------|
A|-0-----------------0-------0---0-------------------------------------------|
E|---------------------------------------------------------------------------|

Verse (repeat as necessary)
e|--------------------------------------------------------------------------|
B|--------------------------------------------------------------------------|
G|-------------------7-7----------------11-11-9-9---------------------------|
D|--7-7-7-7-7-7--9-9-7-7---7-7-7-7-7-7--11-11-9-9---------------------------|
A|--7-7-7-7-7-7--9-9-5-5---7-7-7-7-7-7--9--9--7-7---------------------------|
E|--5-5-5-5-5-5--7-7-------5-5-5-5-5-5--------------------------------------|
PM  X X   X X              X X   X X

Pre-Chorus ("I know that this might be wrong..")
e|--------------------------------------------------------------------------|
B|--------------------------------------------------------------------------|
G|----7~-----9~-------------------------------------------------------------|
D|----7~-----9~-------------------------------------------------------------|
A|----5~-----7~-------------------------------------------------------------|
E|--------------------------------------------------------------------------|

Chorus (Repeat as necessary)
e|--------------------------------------------------------------------------|
B|--------------------------------------------------------------------------|
G|---------7-7-7-7---------9-9-9-9---------7-7-7-7-----x9x------------------|
D|-7-7-7-7-7-7-7-7-7-7-7-7-9-9-9-9-7-7-7-7-7-7-7-7-x7x-x9x-x7x--------------|
A|-7-7-7-7-5-5-5-5-7-7-7-7-7-7-7-7-7-7-7-7-5-5-5-5-x7x-x7x-x7x--------------|
E|-5-5-5-5---------5-5-5-5---------5-5-5-5---------x5x-----x5x--------------|
Go back to the verse, prechorus, chorus.

Solo (rhythm guitar)- It's either this or the regular chorus
*You'll notice this is the chorus moved up two frets
e|--------------------------------------------------------------------------|
B|--------------------------------------------------------------------------|
G|------9999-------11111111------9999-----x11x------------------------------|
D|-9999-9999--9999-11111111-9999-9999-x9x-x11x-x9x----This is all played----|
A|-9999-7777--9999-9-9-9-9--9999-7777-x9x-x9-x-x9x-----once.----------------|
E|-7777-------7777----------7777------x7x------x7x--------------------------|
then
e|--------------------------------------------------------------------------|
B|--------------------------------------------------------------------------|
G|--------7777------9999------7777-----x9x----------------------------------|
D|--7777--7777-7777-9999-7777-7777-x7x-x9x-x7x------------------------------|
A|--7777--5555-7777-7777-7777-5555-x7x-x7x-x7x------------------------------|
E|--5555-------5555------5555------x5x-----x5x------------------------------|

Post-solo ska part (all upstroke)
e|---5-5-5-5-5--------------------------------------------------------------|
B|---5-5-5-5-7--------------------------------------------------------------|
G|---6-6-6-6-7------Repeate as necessary. Finish with:--7~------------------|
D|---7-7-7-7-7------------------------------------------7~------------------|
A|---7-7-7-7-5------------------------------------------5~------------------|
E|---5-5-5-5----------------------------------------------------------------|
And then I believe it goes back to intro and then chorus. You'll be
able to figure it out.
Have fun.


| /  slide up
| \  slide down
| h  hammer-on
| p  pull-off
| ~  vibrato
| +  harmonic
| x  Mute note
============================================================================