Lucky Boys Confusion - Never Like This Text Guitar Tab

Learn the song with the online tablature player
              Em  x4                        D  x4
e|----0--0--0--0--------------2--2--2--2-----------|
B|----0--0--0--0--------------3--3--3--3------------|
G|----0--0--0--0--------------2--2--2--2------------|
D|----2--2--2--2--------------0--0--0--0------------|
A|----2--2--2--2-------------------------------------|
E|----0--0--0--0-------------------------------------|

                            C/G  x8
e|--------0--0--0--0--0--0--0--0--------------------|
B|--------1--1--1--1--1--1--1--1--------------------|
G|--------0--0--0--0--0--0--0--0--------------------|
D|--------2--2--2--2--2--2--2--2--------------------|
A|--------3--3--3--3--3--3--3--3--------------------|
E|--------3--3--3--3--3--3--3--3--------------------|

This progression of Em ////  D ////  C/G //// //// is repeatedly
played throughout the song.