Ludacris - Runaway Love Text Guitar Tab

Learn song with the online tabulature player
-------------------------------------------------------------------------------
                             RUNAWAY LOVE - Ludacris Ft. Mary J Bige
-------------------------------------------------------------------------------
Tabbed by: Coca30stmMCRFan
Email:

Tuning:standard

Alright everyone I know that this isnt all on guitar but I like the song and I though 
may be interested in it.
These are the chords played throughout the majority of the song

e|-9~-----8~-----6~----4~----------------------------------------------------|
B|-11~----9~-----6~----6~----------------------------------------------------|
G|-10~----10~----6~----5~----------------------------------------------------|
D|---------------------------------------------------------------------------|
A|---------------------------------------------------------------------------|
E|---------------------------------------------------------------------------|

This is the instument (i think its a synthesizer) that sounds like you would use the 
bar. It appears during the verses mostly
e|-(9)-8-6-------------------------------------------------------------------|
B|---------9-8-6~--4/5/6~-4/5/6~---------------------------------------------|
G|---------------------------------------------------------------------------|
D|---------------------------------------------------------------------------|
A|---------------------------------------------------------------------------|
E|---------------------------------------------------------------------------|

this is another instrument which sounds a little like guitar but is probably still synthesizer
e|----------9-8-6~--6-8------------------------------------------------------|
B|--4-6-8-9-------------9-8-8-6--4/5/6---------------------------------------|
G|---------------------------------------------------------------------------|
D|---------------------------------------------------------------------------|
A|---------------------------------------------------------------------------|
E|---------------------------------------------------------------------------|