Ludovico Roncalli - Gavotte In G Text Guitar Tab

Learn the song with the online tablature player
LUDOVICO RONCALLI

Gavotte in G major

x indicates a trill.

Suggested Tempo: 108 - 120 BPM

Time signature: 2/2 or cut time

                                   GAVOTTE

        ____    ____ ____ ____  ____       ____     ____ ____  ____
     |  |.-|  | |.-| |.-| |.-|  |.-| |  |  |.-|  |  |.-| |.-|  |.-|   |   |

||------3--2|-0-0--0----0-----|----------------|-------5-7--5--3x-2-|-0x------||
||---3------|--------3----1--3|-0-------0x-0--2|-3--3---------------|-----3---||
||*---------|-----------------|----2-0x-0------|---------0----------|-2------*||
||*---------|-----------------|----------------|-4------------------|-----0--*||
||----------|-3------2----0---|----------------|--------------------|---------||
||----------|-----------------|-3--------------|--------------------|---------||

      ____         ____ ____            ____   ____ ____    __            ____
    | |-.|   |  |  |.-| |.-|   |  |  |  |. |   |.-| |.-| |.  |   |  |  |  |.-|

||---------|-------0--3-2x-0-|-2--2-----8----|----2-3--0-0x----|-0--0--0-------|
||----3--1-|-0x-0-------1----|-4--4--8----10-|-8x--------0---4-|----0--3--1x-0-|
||*-2------|-0---------------|-4--4----------|-9---------------|----0--1-------|
||*--------|-----------------|-4--4----------|-----------------|----2----------|
||---------|-------3----0----|-2--2----------|-----------2-----|---------------|
||---------|-----------------|---------------|-----------------|---------------|

   ____ ____  ____  ____   ____ ____ ____ ____   ____ ____     __
   |.-| |.-|  |.-|  |.-|   |.-| |.-| |.-| |.-|   |.-| |.-|  |.  |   |   |

|------------------------|------3--2-0--0-5--3-|-2--3-5--7--5x--2-|-3---3-----||
|--1--0-1-----3--5--3x---|-0--3----------------|------------------|-----3-----||
|--2-------2-----------5-|-0-------------------|------------------|-0---4----*||
|-------------4----------|---------------------|-0----------------|-----5----*||
|------------------------|-----------3---------|------------------|-----------||
|------------------------|---------------------|------------------|-----------||