Ludwig Van Beethoven - Allegreto In G Text Guitar Tab

Learn the song with the online tablature player
"Allemande"

Allegretto
Key Signature: C Major
Time Signature: 3/4

E-|----|---------0---|-------------|-----1--------|-----0--------|---------0---|
B-|----|-1---1-------|-1---1---1---|-3-----3-0----|-1------------|-1---1-------|
G-|-0.-|---0---0---0-|---0---0---0-|---0-------0--|---0---0--0---|---0---0---0-|
D-|----|-----2---2---|-----2---2---|-3---3---3----|-----2------2-|-----2---2---|
A-|----|-3-----------|-3-----------|--------------|-3--------3---|-3-----------|
E-|----|-------------|-------------|--------------|--------------|-------------|
         1   1   2     1   1   1     4   1 4 3      1   2    3 2   1   1   2
         3   2         3   2   2     3   3          3              3   2

E-|---------0---|-----1-------|------| ||------|-0-0-0-|-----------|-------|
B-|-1---1-------|-3-----3-0---|--1.--| ||------|-0-0-0-|-3-1-0-1---|-3-3-3-|
G-|---0---0---0-|---0-------0-|------| ||*-----|-------|-2-------2-|-2-2-2-|
D-|-----2---2---|-3---3---3---|------| ||*-2.--|-------|-----------|-------|
A-|-3-----------|-------------|--3.--| ||------|-------|-0---------|-------|
E-|-------------|-------------|------| ||------|-4-4-4-|-----------|-2-2-2-|
    1   1   2     4   1 4 3      1         2     3       3 1   1 2   4
    3   2         3   3          3                       2           2
                                                                     1

                 cresc.
E-|-----------|-3-3-3-|-1-0---0---|---1---|------||
B-|-1-0---0---|-------|-----4---1-|-3---0-|--1.--||
G-|-0---2---0-|-------|-----------|-----0-|-----*|| Fine.
D-|-----------|-------|-----0---2-|-3-0---|-----*||
A-|-----------|---0-2-|-3---------|-------|--3.--||
E-|-3---------|-3-----|-----------|-------|------||
    1   2       4 4 4   1   4   1   4 1      1
    3           3   2   3       2   3        3

.................._

E-||------------|| |-------|---------|----(7----|-------|---------|---------|
B-||------------|| |-------|---------|----)7----|-------|---------|---------|
G-||*--repeat--*|| |--5/7--|--12p10--|----(5----|--1h4--|-----|---------|
D-||*----------*|| |-------|---------|----)6----|-------|---------|---------|
A-||------------|| |-------|---------|----(6----|-------|---------|---------|
E-||------------|| |-------|---------|----)7----|-------|---------|---------|
                     Slur     pull     arpegiate  Hammer  Harmonic   Bar on
                              off                  on                x fret