Luis Bacalov - The Grand Duel Parte Prima Text Guitar Tab

Learn song with the online tabulature player
Hi!
This is tab for harmonica in song 'The Grand Duel (Parte Prima)' by Luis Bacalov. This 
song was played in 'Kill Bill' soundtrack. I hope you enjoy.



e|-------------------------10-8------10-8-10-8----8-------------------|
B|-9-10-----9-10-9-10-9-10---------------------10---10-8-10-----------|
G|--------------------------------------------------------------------|
D|--------------------------------------------------------------------|
A|--------------------------------------------------------------------|
E|--------------------------------------------------------------------|

e|-----------------13-12------11-12-11-12-11-12-15-13-----------------|
B|-9-10-9-10-9-10-----------------------------------------------------|
G|--------------------------------------------------------------------|
D|--------------------------------------------------------------------|
A|--------------------------------------------------------------------|
E|--------------------------------------------------------------------|

e|-12-13-15-10-12------10-12-13-8-10-----9-10-12-7-9------------------|
B|--------------------------------------------------------------------|
G|--------------------------------------------------------------------|
D|--------------------------------------------------------------------|
A|--------------------------------------------------------------------|
E|--------------------------------------------------------------------|

e|-10---8-------------------------------------------------------------|
B|--------10---8------------------------------------------------------|
G|------------------10-7----5--2--------------------------------------|
D|--------------------------------------------------------------------|
A|--------------------------------------------------------------------|
E|--------------------------------------------------------------------|