Luka Bloom - Exploring The Blue Text Guitar Tab

Learn the song with the online tablature player
Date:          Thu, 4 Apr 1996 13:43:08 WET
Subject:       TAB: Exploring the blue by Luka Bloom

Main part:

D:----7-----7---------7-----7---------7-----7---------7-----7-------|
A:------0-----0---------0-----0---------0-----0---------0-----0-----|
G:--------7-----7---------7-----7---------7-----7---------7-----7---|
D:----------------0---------------0---------------0---------------0-|
A:------------------------------------------------------------------|
D:--0---------------4---------------5---------------5---------------|

I go down into the water
And dive as deep as man can go
Into those dark places
Watch the underwater flow

The first part of the chorus is played partly strumming and partly plucked and lookes something like:

D:-0-0-0-0-0-0-0-0-0-0-0-0-0-0-0-0-0-0-0-0-0-0-0-0-0-0-0-0-0-0-0-0-|
A:-0-0-0-0-0-0-0-0-0-0-0-0-0-0-0-0-0-0-0-0-0-0-0-0-0-0-0-0-0-0-0-0-|
G:-0-0-0-0-0-0-0-0-0-0-0-0-0-0-0-0-7-7-7-7-7-7-7-7-7-7-7-7-7-7-7-7-|
D:-0-0-0-0-0-0-0-0-0-0-0-0-0-0-0-0-0-0-0-0-0-0-0-0-0-0-0-0-0-0-0-0-|
A:-2-2-2-2-2-2-2-2-5-5-5-5-5-5-5-5-9-9-9-9-9-9-9-9-9-9-9-9-9-9-9-9-|
D:-2-2-2-2-2-2-2-2-5-5-5-5-5-5-5-5-9-9-9-9-9-9-9-9-9-9-9-9-9-9-9-9-|
                                          Exploring     the      blue

play it three times and end with

D:----0--------0--------------0--------0----------||----7--------7----------|
A:-------0--------0--------------0--------0-------||-------0--------0-------|
G:----------6--------6--------------6--------6----||----------7--------7----|
D:----------------------7-----------------------7-||----------------------0-|
A:------------------------------------------------||------------------------|
D:-7-----------------------7----------------------||-0----------------------|
                                   In  search  of  you

And then you pick up the main part again

Here I stand by the mountain
Look up to the sky
Knowing it's a matter of having to climb
Above this place
These clouds lie

Chorus

D:-0--0--0--0--0--0--0--0--0--0--0--0--0--0--0--0---|
A:-0--0--0--0--0--0--0--0--0--0--0--0--0--0--0--0---|
G:-11-11-11-11-12-12-12-12-14-14-14-14-12-12-12-12--|
D:-0--0--0--0--0--0--0--0--0--0--0--0--0--0--0--0---|
A:-12-12-12-12-12-12-12-12-15-15-15-15-12-12-12-12--|
D:-0--0--0--0--0--0--0--0--0--0--0--0--0--0--0--0---|

D:-0--0--0--0--0--0--0--0--0--0--0--0--0--0--0--0---|
A:-0--0--0--0--0--0--0--0--0--0--0--0--0--0--0--0---|
G:-11-11-11-11-12-12-12-12-14-14-14-14-12-12-12-12--|
D:-0--0--0--0--0--0--0--0--0--0--0--0--0--0--0--0---|
A:-12-12-12-12-12-12-12-12-15-15-15-15-12-12-12-12--|
D:-0--0--0--0--0--0--0--0--0--0--0--0--0--0--0--0---|
       It may be high           It may be low

D:-0--0--0--0--0--0--0--0--0--0--0--0--0--0--0--0--|
A:-0--0--0--0--0--0--0--0--0--0--0--0--0--0--0--0--|
G:-11-11-11-11-12-12-12-12-14-14-14-14-12-12-12-12-|
D:-0--0--0--0--0--0--0--0--0--0--0--0--0--0--0--0--|
A:-12-12-12-12-12-12-12-12-15-15-15-15-12-12-12-12-|
D:-0--0--0--0--0--0--0--0--0--0--0--0--0--0--0--0--|
                                           Where I

D:-0-0-0-0-0-0-0-0-0-0-0-0-0-0-0-0-0-0-0-0-0-0-0-0-0-0-0-0-0-0-0-0-|
A:-0-0-0-0-0-0-0-0-0-0-0-0-0-0-0-0-0-0-0-0-0-0-0-0-0-0-0-0-0-0-0-0-|
G:-0-0-0-0-0-0-0-0-0-0-0-0-0-0-0-0-7-7-7-7-7-7-7-7-7-7-7-7-7-7-7-7-|
D:-0-0-0-0-0-0-0-0-0-0-0-0-0-0-0-0-0-0-0-0-0-0-0-0-0-0-0-0-0-0-0-0-|
A:-2-2-2-2-2-2-2-2-5-5-5-5-5-5-5-5-9-9-9-9-9-9-9-9-9-9-9-9-9-9-9-9-|
D:-2-2-2-2-2-2-2-2-5-5-5-5-5-5-5-5-9-9-9-9-9-9-9-9-9-9-9-9-9-9-9-9-|
   think you are            That's where I'll go

D:-0-0-0-0-0-0-0-0-0-0-0-0-0-0-0-0-0-0-0-0-0-0-0-0---0-----0-------|
A:-0-0-0-0-0-0-0-0-0-0-0-0-0-0-0-0-0-0-0-0-0-0-0-0-----0-----0-----|
G:-0-0-0-0-0-0-0-0-0-0-0-0-0-0-0-0-7-7-7-7-7-7-7-7-------------0---|
D:-0-0-0-0-0-0-0-0-0-0-0-0-0-0-0-0-0-0-0-0-0-0-0-0-------0-------0-|
A:-2-2-2-2-2-2-2-2-5-5-5-5-5-5-5-5-9-9-9-9-9-9-9-9-----------------|
D:-2-2-2-2-2-2-2-2-5-5-5-5-5-5-5-5-9-9-9-9-9-9-9-9-9---------------|
                            That's where I'll go

D:-0-0-0-0-0-0-0-0-0-0-0-0-0-0-0-0-0-0-0-0-0-0-0-0-0-0-0-0-0-0-0-0-|
A:-0-0-0-0-0-0-0-0-0-0-0-0-0-0-0-0-0-0-0-0-0-0-0-0-0-0-0-0-0-0-0-0-|
G:-0-0-0-0-0-0-0-0-0-0-0-0-0-0-0-0-7-7-7-7-7-7-7-7-7-7-7-7-7-7-7-7-|
D:-0-0-0-0-0-0-0-0-0-0-0-0-0-0-0-0-0-0-0-0-0-0-0-0-0-0-0-0-0-0-0-0-|
A:-2-2-2-2-2-2-2-2-5-5-5-5-5-5-5-5-9-9-9-9-9-9-9-9-9-9-9-9-9-9-9-9-|
D:-2-2-2-2-2-2-2-2-5-5-5-5-5-5-5-5-9-9-9-9-9-9-9-9-9-9-9-9-9-9-9-9-|
                            That's where I'll go

D:----0--------0--------------0--------0----------||----7--------7----------|
A:-------0--------0--------------0--------0-------||-------0--------0-------|
G:----------6--------6--------------6--------6----||----------7--------7----|
D:----------------------7-----------------------7-||----------------------0-|
A:------------------------------------------------||------------------------|
D:-7-----------------------7----------------------||-0----------------------|
                                   In  search  of  you
And continu the main part again.

I go down into the water
And dive as deep as man can go

End with something like

                    fade away
D:---------------------------------------------------|
A:---0-----0-----0-----0----0------------------------|
G:-----7-----7-----7-----7----7----------------------|
D:-------0-----0-----0-----0----0--------------------|
A:---------------------------------------------------|
D:-0------------------------------0------------------|