Luke Thompson - Mission Impossible Theme Text Guitar Tab

Learn song with the online tabulature player
mission impossible!!!!

e/-----------------------------------------------------------------------/
b/-----------------------------------------------------------------------/
g/----------------------------------------3-0------3-0------3-0----------/
d/---------------------------------------------0-------------------------/
a/-------1-3---------------1-3-------------------------4--------3---1-3--/
E/--3-3-------3-3-1-2-3-3-------3-3-1-2----------------------------------/

e/---------------------------------------------2-------1-------0-------/
b/---------------------------------------------------------------------/
g/---------------------------------------3-0------3-0-----3-0----------/
d/---------------------------------------------------------------------/
a/-------1-3---------------1-3-------------------------------------1-3-/
E/--3-3-------3-3-1-2-3-3-------3-3-1-2--------------------------------/

e/----------------------------------------/
b/----------------------------------------/
g/----------------------------------------/
d/----------------------------------------/
a/-------1-3---------------1-3------------/
E/--3-3-------3-3-1-2-3-3-------3-3-1-2-3-/