Lulu - Always Text Guitar Tab

Learn the song with the online tablature player
e|------------------------------------------------------------------------|
B|------------------------------------------------------------------------|
G|------------------------------------------------------------------------|
D|------------------------------------------------------------------------|
A|---11--11---11---11---11---11---11---11---9---9---9---9---9---9---9---9-|
E|-0---0----0----0----0----0----0----0----0---0---0---0---0---0---0---0---|

e|------------------------------------------------------------------------|
B|------------------------------------------------------------------------|
G|------------------------------------------------------------------------|
D|------------------------------------------------------------------------|
A|---0---0---0---0---0---0---0---0---7---7---7---7---7---7---7---7--------|
E|-0---0---0---0---0---0---0---0---0---0---0---0---0---0---0---0----------|

That's pretty much it it's a steady paced song but you just repeat that and
strum a D at the end. It's easy. If I get enough votes I'll put the lyrics up.