Lumineers - Classy Girls Text Guitar Tab

Learn song with the online tabulature player
Capo on 10

|---------2------------------2---------|
|--------------------------------------|
|---2---------2---2----2---------2---2-|
|-0---0---------0----0---0---------0---|
|--------------------------------------|
|--------------------------------------|

|---------3------------------3---------|
|--------------------------------------|
|---4---------4---4----4---------4---4-|
|-0---0---------0----0---0---------0---|
|--------------------------------------|
|--------------------------------------|

|---------5------------------3---------|
|--------------------------------------|
|---6---------6---6----4---------4---4-|
|-0---0---------0----0---0---------0---|
|--------------------------------------|
|--------------------------------------|

|---------2----------|
|--------------------|
|---2---------2---2--|
|-0---0---------0----|
|--------------------|
|--------------------|