Lummox - All Boiled Up Text Guitar Tab

Learn song with the online tabulature player
from natural born swillers

riff 1                           part 2                      part 3
|-------------------------------|----------------------------|------------------|
|-------------------------------|----------------------------|------------------|
|-------------------------------|----------------------------|------------------|
|-------------------------------|-------3-----------3--3-----|-------------3----|
|-------------------------------|-2-----1--11-5-----1--1--5--|-2-----5-----1----|
|-0-3-4-0-3-4-0-3-4-0-3-4-0-3-4-|-0--00-------3--33-------3--|-0--00-3--33------|


riff 3       ending:
|------------|-----------------6-|
|------------|---------------5---|
|------------|-4-5-4-------3-----|
|-3-----3----|-2-3-2-----2-------|
|-1--2--1----|-------------------|
|----0-------|-------------------|

http://www.discogs.com/Lummox-Natural-Born-Swillers/release/1611685