Lummox - New Country Text Guitar Tab

Learn song with the online tabulature player
from natural born swillers

riff 1
|---------------------------|
|---------------------------|
|---------------------------|
|---------------------------|
|-----------------------2---|
|-0-0-0-0-0-0-0-0-0-0-0-0-0-|


riff 2
|-------------------------------------------------------------------------------------|
|-------------------------------------------------------------------------------------|
|-------------------------------------------------------------------------------------|
|-------------------------------------------------------------------4--2--------------|
|---------------------------------0-0-0-0-0-0-0-0-0-0-0-0-0-0-0-0---2--0--------------|
|-0-0-0-0-0-0-0-0-0-0-0-0-0-0-0-0----------------------------------------3^-0-3^-3^-0-|


http://www.discogs.com/Lummox-Natural-Born-Swillers/release/1611685