Lummox - The Women Next To Me Text Guitar Tab

Learn the song with the online tablature player
from natural born swillers

riff 1
|----------------------------------|
|----------------------------------|
|----------------------------------|
|--------11-1212-9-7-77-77-9-99-99-|
|-7-99-99-9-10-9-7-5-55-55-7-77-77-|
|-5-77-77--------------------------|

riff 2
|---------------------------------|
|---------------------------------|
|---------------------------------|
|---------910-9-7-----------------|
|-7-77-77-7-8-7-5-7-99-99-7-99-99-|
|-5-55-55---------5-77-77-5-77-77-|