Lummox - This Is My Party Text Guitar Tab

Learn the song with the online tablature player
from natural born swillers

riff 1
|-----------------------------------|
|-----------------------------------|
|-----------------------------------|
|-2----5--8--7-5-7-2----5--8--7--5--|
|-0-00-3--6--5-3-5-0-00-3--6--5--3--|
|-----------------------------------|

riff 2
|-----------------------------------|-----------------------------------|
|-----------------------------------|-----------------------------------|
|-----------------------------------|-----------------------------------|
|-2-----2-------------2-----2-------|-2----5--8--7-5-7-2----5--8--7--5--|
|-0---0-0-0-0-0-0-0-0-0-0-0-0-0-----|-0-00-3--6--5-3-5-0-00-3--6--5--3--|
|-------------------------------0-3-|-----------------------------------|

riff 3
|-----------------------------------------------------------|
|-----------------------------------------------------------|
|-----------------------------------------------------------|
|-----------------------------------------------------------|
|-0-0-3-6--5-3-0-----3-6--5-3------3-6--5-3-0-----3-6--5-3--|
|----------------3-3-----------2-2------------1-1-----------|