Luna - Neon Lights Text Guitar Tab

Learn song with the online tabulature player
-------------------------------------------------------------------------------
                             Neon Lights-Luna (intro)
-------------------------------------------------------------------------------
Tabbed by: clapurhndssayya
Email: romansperkacz@aol.com

Tuning: Standard

e|--7---5-5-------3-2-0----7---5-5-------3-2-0----7-------3-5/7-7-5-5--------
B|--------------------------------------------------3-3----------------------|
G|---------------------------------------------------------------------------|
D|---------------------------------------------------------------------------|
A|---------------------------------------------------------------------------|
E|---------------------------------------------------------------------------|

e|--7---5-5-------3-2-0----7---5-5-------3-2-0----7-------3-5/7-7-5-5--------|
B|--------------------------------------------------3-3----------------------|
G|---------------------------------------------------------------------------|
D|---------------------------------------------------------------------------|
A|---------------------------------------------------------------------------|
E|---------------------------------------------------------------------------|

e|--10-----12-----14-12-10---7-10-7-5------10-----12-----14-12-10---7-10-7-5-|
B|---------------------------------------------------------------------------|
G|---------------------------------------------------------------------------|
D|---------------------------------------------------------------------------|
A|---------------------------------------------------------------------------|
E|---------------------------------------------------------------------------|

e|--10-----12-----14-12-10---7-10-7-5------10-----12-----14-12-10---7-10-7-10
B|---------------------------------------------------------------------------|
G|---------------------------------------------------------------------------|
D|---------------------------------------------------------------------------|
A|---------------------------------------------------------------------------|
E|---------------------------------------------------------------------------|

yeah thats basically the beginning
************************************

| /   slide up
| \   slide down
| h   hammer-on
| p   pull-off
| ~   vibrato
| +   harmonic
| x   Mute note
| b   Bend
| pb  Pre-bend
| br  Bend release
| pbr Pre-bend release
| brb Bend release bend

************************************