Lunachicks - Babysitters On Acid Text Guitar Tab

Learn song with the online tabulature player
Artist: Lunachicks 
Song: Babysitters On Acid
Album: Babysitters On Acid
Tabbed by: Martina 

INTRO/VERSE
E------------------------------------------------------|
B------------------------------------------------------|
G------------------------------------------------------|
D--4-4-4-4-4-7-7-2-2-4-4-4-4-4-4-----------------------|
A--4-4-4-4-4-7-7-2-2-4-4-4-4-4-4-----------------------|
E--2-2-2-2-2-5-5-----2-2-2-2-2-2-----------------------|

VERSE
Hello dear, there's some popcorn in here .. 
E------------------------------------------------------|
B------------------------------------------------------|
G------------------------------------------------------|
D--3/4-x--3/4-x--3/4-x--3/4-x--------------------------|
A--3/4-x--3/4-x--3/4-x--3/4-x--------------------------|
E--1/2-x--1/2-x--1/2-x--1/2-x--------------------------|

INTRO x1
VERSE x1
INTRO x1
VERSE x1
INTRO x1
VERSE x1
INTRO x1

CHORUS
Are they gone yet? ...
E------------------------------------------------------|
B------------------------------------------------------|
G------------------------------------------------------|
D--2-4-4-4-4-2-4-4-4-4-2-4-4-4-4--4-4-4-4--------------|
A--2-4-4-4-4-2-4-4-4-4-2-4-4-4-4--4-4-4-4--------------|
E----2-2-2-2---2-2-2-2---2-2-2-2--2-2-2-2--------------|

INTRO x2
VERSE x1
INTRO x1
VERSE x1
INTRO x1
VERSE x1
INTRO x1
VERSE x1
INTRO x1
CHORUS x2

BRIDGE 
Babysitters on acid, babysitters on acid ... 
E------------------------------------------------------|
B------------------------------------------------------|
G------------------------------------------------------|
D--4-4-4-4-4-7-7-7-4-4-4-4-4-2-2-2---------------------|
A--4-4-4-4-4-7-7-7-4-4-4-4-4-2-2-2---------------------|
E--2-2-2-2-2-5-5-5-2-2-2-2-2---------------------------|

FALLOW 
Every town in the USA ....
E------------------------------------------------------|
B------------------------------------------------------|
G------------------------------------------------------|
D--4-4-4-4-4-7-\---------------------------------------|
A--4-4-4-4-4-7-\---------------------------------------|
E--2-2-2-2-2-5-\---------------------------------------|

INTRO x2
VERSE x1
INTRO x1
VERSE x1
INTRO x1
VERSE x1
INTRO x1
VERSE x1
INTRO x1
CHORUS x2
BRIDGE 
SOLO (Just hammer on) 
BRIDGE
INTRO x1