Lupe Fiasco - Fighters Text Guitar Tab

Learn the song with the online tablature player
E---------------------------------------------------------------------------|
B---------10-12-10----10----------10-12-10----10----------10-12-10----10----|
G------12----------12----12----12----------12----12----12----------12----12-|
D---14----------------------13----------------------12----------------------|
A---------------------------------------------------------------------------|
E---------------------------------------------------------------------------|

E---------------------------------------------------------------------------|
B---------10-12-10----10----------10-12-10----10----------10-12-10----10----|
G------12----------12----12----12----------12----12----12----------12----12-|
D---11----------------------10----------------------10----------------------|
A---------------------------------------------------------------------------|
E---------------------------------------------------------------------------|

E---------------------------------------------------|
B---------10-12-10----10----------10-12-10----10----|
G------12----------12----12----12----------12----12-|
D---12----------------------13----------------------|
A---------------------------------------------------|
E---------------------------------------------------|

this is repeated throughout the entire song