Lupe Fiasco - Go Go Gadget Flow Text Guitar Tab

Learn the song with the online tablature player
                             Go Go Gadget Flow - Lupe Fiasco

e|------------------------------|
B|------------------------------|
G|------------------------------|   X3
D|--------------------0-2-0-----|
A|-0------0-2-3-0-2-3-------3---|
E|------------------------------|

e|----------------------------|
B|----------------------------|
G|----------------------------|
D|----------------------------|
A|--------------------3-5-3---|
E|-3------3-5-7-3-5-7---------|

NOTE:
theres also some string thing going on in the background. it plays:
E E E D C C B B
those are the base chords, theyre probably playing thirds or something, its not important...

| /  slide up
| \  slide down
| h  hammer-on
| p  pull-off
| ~  vibrato
| +  harmonic
| x  Mute note