Lupe Fiasco - Hip Hop Saved My Life Text Guitar Tab

Learn the song with the online tablature player
      E    C    A
-----12--------------12-----------------12------------|
----------13--------------13------------------13------|
----------------14---------------14-------------------|   And Just Keep
------------------------------------------------------|      Repeating
------------------------------------------------------|
------------------------------------------------------|

OR you can do this

     E    C     A
-----0--------------0-----------------0------------|
----------1--------------1------------------1------|
----------------2---------------2------------------|   And Just Keep
---------------------------------------------------|      Repeating
---------------------------------------------------|
---------------------------------------------------|

If you want to get into the chords i think it's E(or Em), C, and A.

Thanks