Lupe Fiasco - I Dont Wanna Care Right Now Text Guitar Tab

Learn the song with the online tablature player
                I Don't Wanna Care Right Now ~ LUPE FIASCO

As usual, listen to the song for timing

VERSE
Too lazy to figure out the arpeggios over it)

e|-----------------|  x3
B|-----------------|
G|-----------------|
D|-----------------|
A|--1---1--------3-|
E|-----------1-4---|

e|-----------------|  x1
B|-----------------|
G|-----------------|
D|-----------------|
A|--1-1-1------3---|
E|-----------1---4-|

CHORUS

e|---------------------------------------------------|
B|---------------------------------------------------|
G|-8---8-8---11---11-11---6---6-6--------------------|
D|-8---8-8---11---11-11---6---6-6----6---6-6---------|
A|-6---6-6----9----9--9---4---4-4----6---6-6---------|
E|-----------------------------------4---4-4---------|