Lupe Fiasco - Real Text Guitar Tab

Learn the song with the online tablature player
This is the main riff. Have fun.

e---------------------------|
B---------------------------|
G---------------------------|
D---------------------------|
A--1-2-4-6---2-1-2------1---|
E-------------------4-4-----|

e---------------------------|
B---------------------------|
G---------------------------|
D---------------------------|
A--1-2-4-6---2-1-2------1---|
E-------------------4-4-----|