Lurkers - Love Story Text Guitar Tab

Learn song with the online tabulature player
Hi this is my first tab.Im pretty sure its 100% right hopefully it is.leave any comments.
Intro:
e|------------------------------------------------------------------------|
B|------------------------------------------------------------------------|
G|--------------------9-9-9-9-9-9-9-9---7-7-7-7-7-7-7-7---9-9-9-9-9-9-9-9-|
D|-5-5-5-5-5-5-5-5----9-9-9-9-9-9-9-9---7-7-7-7-7-7-7-7---9-9-9-9-9-9-9-9-|
A|-5-5-5-5-5-5-5-5----7-7-7-7-7-7-7-7---5-5-5-5-5-5-5-5---7-7-7-7-7-7-7-7-|
E|-3-3-3-3-3-3-3-3--------------------------------------------------------|

Verse:
e|------------------------------------------------------------------------|
B|------------------------------------------------------------------------|
G|------------------5-5-5-5-5-5-5-5--9-9-9-9-9-9-9-9-9-9-9-9-9-9-9-9------|
D|-5-5-5-5-5-5-5-5--5-5-5-5-5-5-5-5--9-9-9-9-9-9-9-9-9-9-9-9-9-9-9-9------|
A|-5-5-5-5-5-5-5-5--3-3-3-3-3-3-3-3--7-7-7-7-7-7-7-7-7-7-7-7-7-7-7-7------|
E|-3-3-3-3-3-3-3-3--------------------------------------------------------|

Chorus:
e|------------------------------------------------------------------------|
B|------------------------------------------------------------------------|
G|--9-9-9-9-9-9-9-9-9-9-9-9-9-9-9-9--7-7-7-7-7-7-7-7-7-7-7-7-7-7-7-7------|
D|--9-9-9-9-9-9-9-9-9-9-9-9-9-9-9-9--7-7-7-7-7-7-7-7-7-7-7-7-7-7-7-7------|
A|--7-7-7-7-7-7-7-7-7-7-7-7-7-7-7-7--5-5-5-5-5-5-5-5-5-5-5-5-5-5-5-5------|
E|------------------------------------------------------------------------|

Bridge:
e|------------------------------------------------------------------------|
B|------------------------------------------------------------------------|
G|------------------5-5---------------5-5-5-------------------------------|
D|-7-7-7-7-7-7-7-7--5-5--9-9-9-9--X6--5-5-5---9-9-9---X4------------------|
A|-7-7-7-7-7-7-7-7--3-3--9-9-9-9------3-3-3---9-9-9-----------------------|
E|-5-5-5-5-5-5-5-5-------7-7-7-7--------------7-7-7-----------------------|

Song Structure:
Intro
verse
Chorus
verse
Chorus
Verse 
Chorus
Bridge
Verse 
Chorus
Bridge
Verse
Chorus
End on D