Lush - Thoughtforms Text Guitar Tab

Learn the song with the online tablature player
Song:  "Thoughtforms" by Lush
Written by Emma Anderson
(from the "Scar" EP)

   E A D G B E

A  0 0 2 2 2 0
D  0 0 2 0 3 2
E  0 2 2 1 0 0
Bm 0 0 4 4 3 0

A/A/A/D/D x 4

E/E/Bm/Bm x3
On 4th time, play E twice then bar 7th fret & play open

Chorus
----2-----2-----0-----0-----1-----1----|
------2-----2-----1-----1-----3-----3--|
--2-----2-----0-----0-----0-----0------|
---------------------------------------|
---------------------------------------|
---------------------------------------|
(play above twice, then:)

----2-----2-----0-----0-----3-----3----|
------2-----2-----1-----1-----3-----3--|
--2-----2-----0-----0-----0-----0------|
---------------------------------------|
---------------------------------------|
---------------------------------------|

----1-----1-----0-----0-----0-----0----|
------1-----1-----0-----0-----0-----0--|
--2-----2-----0-----0-----1-----1------|
---------------------------------------|
---------------------------------------|
---------------------------------------|

Song ends on A