Luti-Kriss - Blacksmith Text Guitar Tab

Learn the song with the online tablature player
intro/verse: part 1
e----------------------------
b----------------------------
g----------------------------
d-00-6-00--------------------
a-00-6-00--------------------
D-00-6-00-0-1-0-1-2-1-0-1----

intro/verse: part 2
e--------------------------------------
b--------------------------------------
g--------------------------------------
d--------------------------------------
a--------------------------------------
D-0-0-0-0-1p0-0-0-0-0-1p0-1p0-2p0------

 it goes back and forth between these two parts
 then

Chorus
e-------------------------------
b-------------------------------
g-------------------------------
d-0h1-1-1-0-0h1-1-1-0-----------
a-0h1-1-1-0-0h1-1-1-0-----------
D-0h1-1-1-0-0h1-1-1-0-----------
 the chorus section is kinda tricky at first
 it plays through acouple times and then it plays once
 or something along those lines... you'll figure it out
 if you have the song...

introlude
e------------------
b------------------
g------------------ this is played on the 10th
d-10s11------------ and 11th fret not the 1st
a-10s11------------ and open.. it looks confusing
D-10s11------------ so i thought i would let you know
 the intolude plays back and forth for a while and then
 they mute all strings and play it again..

ending:
e----------------------
b----------------------
g----------------------
d-1-0-1-3-000-000------
a-1-0-1-3-000-000------
D-1-0-1-3-000-000------
 then
e-----------------------------
b-----------------------------
g-----------------------------
d-----------------------------
a-3-333h4p3s1-33-4-333h4------
D-----------------------------
 this riff is played acouple times and then moves
 up an octive to..
e-----------------------------
b-----------------------------
g-----------------------------
d-5-555h6p5s3-55-6-555h6------
a-----------------------------
D-----------------------------
  this playes until the end of the song where they do
  something with "e" and "b" string aroung the12-15 fret
  not sure exactly what but i play this
e-13~----
b-12~----
  and i add some tremelo.. or shake it alittle.