Luxus Leverpostei - Dra Til Helvete Text Guitar Tab

Learn the song with the online tablature player
LUXUS LEVERPOSTEI - DRA TIL HELVETE

 /  = Slide oppover.

INTRO

--------------------------------------------|
--------------------------------------------|
-----7-------7-------7----------------------|
-5---7---7---7---5---7---7-7-7-7-7-7-7-7-7--|
-5---5---7---5---5---5---7-7-7-7-7-7-7-7-7--|
-3-------5-------3-------5-5-5-5-5-5-5-5-5--|

[REFRENG]

-----------------------------------------  |
-----------------------------------------  |  /
-5--5--5--5/7--7--7---x--x--x------------  |  x  4
-5--5--5--5/7--7--7---x--x--x----5-4--4--  | /
-3--3--3--3/5--5--5---x--x--x------------  |
-----------------------------------------  |

[VERS**]

--------------- |               -------------------------------------|
--------------- |  /           --------------------------------------|
-----7-------7- |  x  2         -----7-------7-----------------------|
-5---7---7---7- | /            -5---7---7---7---7-7-7-7-7-7-7-7-7----|
-5---5---7---5- |               -5---5---7---5---7-7-7-7-7-7-7-7-7---|
-3-------5----- |               -3-------5-------5-5-5-5-5-5-5-5-5---|

[REFRENG]

-----------------------------------------  |
-----------------------------------------  |  /
-5--5--5--5/7--7--7---x--x--x------------  |  x  4
-5--5--5--5/7--7--7---x--x--x----5-4--4--  | /
-3--3--3--3/5--5--5---x--x--x------------  |
-----------------------------------------  |

[VERS**]

--------------- |               -------------------------------------|
--------------- |  /           --------------------------------------|
-----7-------7- |  x  2         -----7-------7-----------------------|
-5---7---7---7- | /            -5---7---7---7---7-7-7-7-7-7-7-7-7----|
-5---5---7---5- |               -5---5---7---5---7-7-7-7-7-7-7-7-7---|
-3-------5----- |               -3-------5-------5-5-5-5-5-5-5-5-5---|

[REFRENG]

-----------------------------------------  |
-----------------------------------------  |  /
-5--5--5--5/7--7--7---x--x--x------------  |  x  4
-5--5--5--5/7--7--7---x--x--x----5-4--4--  | /
-3--3--3--3/5--5--5---x--x--x------------  |
-----------------------------------------  |

[VERS**]

--------------- |               -------------------------------------|
--------------- |  /           --------------------------------------|
-----7-------7- |  x  2         -----7-------7-----------------------|
-5---7---7---7- | /            -5---7---7---7---7-7-7-7-7-7-7-7-7----|
-5---5---7---5- |               -5---5---7---5---7-7-7-7-7-7-7-7-7---|
-3-------5----- |               -3-------5-------5-5-5-5-5-5-5-5-5---|

[REFRENG]

-----------------------------------------  |
-----------------------------------------  |  /
-5--5--5--5/7--7--7---x--x--x------------  |  x  4
-5--5--5--5/7--7--7---x--x--x----5-4--4--  | /
-3--3--3--3/5--5--5---x--x--x------------  |
-----------------------------------------  |

SOLOEN HAR JEG ENDA IKKE FÅTT SKREVET NED ETTERSOM JEG RETT OG SLETT IKKE GIDDER NÅ. MEN
ER DET SAMME SOM PÅ VERSET, SOM IGJEN BLIR ETTERFULGT AV ET REFRENG, MEN UTEN SYNGING
LITT PÅLAGTE EFFEKTER PÅ GITAREN.