Lydia - Always Move Fast Text Guitar Tab

Learn the song with the online tablature player
So I've decided to do my own version of this song.. im about 95% sure of it after seeing
of them playing it live and just messing around with it. so here it is

Verses
strum accordingly)

The parentheses are notes that im quite sure are there but you have to listen closely..
sounds fine without them if you can mute the string.

e:-0--0--0------------0------------------------------------------------|
B:-0--0--0------------0------------------------------------------------|
G:(8)(8)-9------6--8--9------------------------------------------------|
D:-9--9--9------7--9--9------------------------------------------------|
A:-7--9--7------7--9--7------------------------------------------------|
E:-5--7--9------5--7--9------------------------------------------------|

Chorus
strum accordingly)

The open a string is also played i believe but again it sounds fine without it if you
want it.

e:-0---0---0-------0---0---0-------------------------------------------|
B:-0---0---9-------0---0---12------------------------------------------|
G:-9---8---9-------9---8---9-------------------------------------------|
D:-9---9---11------9---9---11------------------------------------------|
A:------------------------(0)------------------------------------------|
E:---------------------------------------------------------------------|

    Bridge

e:---------0-0-0-------------------------------------------------------|
B:----4----4-4-0-------------------------------------------------------|
G:--6---6------4-------------------------------------------------------|
D:---------------------------------------------------------------------|
A:---------------------------------------------------------------------|
E:---------------------------------------------------------------------|

And well.. thats about it really.. its a pretty simple yet amazing song. hope you all
it!