Lykke Li - Let It Fall Text Guitar Tab

Learn song with the online tabulature player
Hey I love this song, and its pretty easy so here it is.

INTRO (x4)
G|--------------------------------|
D|--------------------------------|
A|--------------------------------|
E|-9-9-9-9-6----------------------|


VERSE 1 (x12)
G|--------------------------------|
D|--------------------------------|
A|--------------------------------|
E|-9-9-9-9-6----------------------|


CHORUS
G|--------------------------------|
D|--------------------------------|
A|-8-8-8-8-8----------------------|
E|--------------------------------| (x3)

G|--------------------------------|
D|--------------------------------|
A|-88-88-88-88--------------------|
E|--------------------------------|

G|--------------------------------|
D|--------------------------------|
A|--------------------------------|
E|-9-9-9-9-6----------------------| (x4)

G|--------------------------------|
D|--------------------------------|
A|--------------------------------|
E|-5-5-5-5-8----------------------| (x4)

G|--------------------------------|
D|--------------------------------|
A|--------------------------------|
E|-9-9-9-9-6----------------------| (x2)


VERSE 2
G|--------------------------------|
D|--------------------------------|
A|--------------------------------|
E|-9-9-9-9-6----------------------| (X12)

G|--------------------------------|
D|--------------------------------|
A|--------------------------------|
E|-9------------------------------|



CHORUS (Slightly different from the first chorus)
G|--------------------------------|
D|--------------------------------|
A|-8-8-8-8-8----------------------|
E|--------------------------------| (x3)

G|--------------------------------|
D|--------------------------------|
A|-88-88-88-88--------------------|
E|--------------------------------|

G|--------------------------------|
D|--------------------------------|
A|--------------------------------|
E|-9-9-9-9-6----------------------| (x4)

G|--------------------------------|
D|--------------------------------|
A|--------------------------------|
E|-5-5-5-5-8----------------------| (x4)

G|--------------------------------|
D|--------------------------------|
A|--------------------------------|
E|-9-9-9-9-6----------------------| (x4)

G|--------------------------------|
D|--------------------------------|
A|--------------------------------|
E|-5-5-5-5-8----------------------| (x4)
bn
G|--------------------------------|
D|--------------------------------|
A|--------------------------------|
E|-9-9-9-9-6----------------------| (x4)