Lymphatic Phlegm - Malignant Tumour Resultant From Epithelial Cells Proliferation Text Guitar Tab

Learn song with the online tabulature player
Lymphatic Phlegm
Pathologist's Cadaveric Fleshfeast
Malignant Tumour Resultant From Epithelial Cells Proliferation

Copyright (c)  Bizarre Leprous Production 2002
Version 1.0 - 25.5.06

Transcribed By: Yaniv Dekel
Email:          lickywebster@yahoo.com


.  - palm mute           /  - slide up to
\  - slide down to       ~  - vibrato
h  - hammer on           b  - Bend
p  - pull off            Suffixes for bend
t  - tap                 f  - full bend    h - half bend
ph - pinched harmonic    q  - quarter bend t - tap bend
*  - see comment         ^  - Hold bend    r release bend
x  - Stuccatto           ~  - vibrato bend
,  - slight palm mute    () - ghost note, sustained note
"  - tremolo note        <> - Trill

Tuning E A D G B E

NOTE: My guess is that they improvised with these riffs
      as there is no clear structure. Just do the same.
      (both channels are different BTW).


Riff A          Riff B           Riff C           Riff D
|---------------|----------------|----------------|----------------|
|---------------|----------------|----------------|----------------|
|---------------|----------------|----------------|----------------|
|-------------5-|--------------7-|--------------7-|-------------5--|
|-------------3-|--------------5-|--------------5-|-------------3--|
|-2h3p2-5-5-----|--2h3p2-6-5-----|--2h3p2-5-4-4---|-2h3p2-6-5------|

Riff E          Riff F
|---------------|---------------|
|---------------|---------------|
|---------------|---------------|
|-------------7-|-------------5-|
|-------------5-|-------------3-|
|-2h3p2-5-5-----|-2h3p2-5-4-4---|

End with
|-------|
|-------|
|-------|
|-5-----|
|-5-----|
|-3-----|


END