Lymphatic Phlegm - Multiple Induced Foetal Abnormalities In Embryopathia Text Guitar Tab

Learn song with the online tabulature player
Lymphatic Phlegm
Pathologist's Cadaveric Fleshfeast
Multiple Induced Foetal Abnormalities In Embryopathia

Copyright (c)  Bizarre Leprous Production 2002
Version 1.0 - 23.5.06

Transcribed By: Yaniv Dekel
Email:          lickywebster@yahoo.com


.  - palm mute           /  - slide up to
\  - slide down to       ~  - vibrato
h  - hammer on           b  - Bend
p  - pull off            Suffixes for bend
t  - tap                 f  - full bend    h - half bend
ph - pinched harmonic    q  - quarter bend t - tap bend
*  - see comment         ^  - Hold bend    r release bend
x  - Stuccatto           ~  - vibrato bend
,  - slight palm mute    () - ghost note, sustained note
"  - tremolo note        <> - Trill

Tuning E A D G B E

Riff A1 x2         Riff A2 x4
|-----------------||----------------------|
|-----------------||----------------------|
|-----------------||----------------------|
|-----4-------7-6-||----------------------|
|-4---2---6---5-4-||------2222------5p4-4-|
|-2-------4-------||-2222------4444-------|

Riff B x10
|---------------------------|
|---------------------------|
|---------------------------|
|---------------------------|
|-------------------4p2-5p4-|
|-2222-1111-4p2-5p4---------|

Riff A1 x2
Riff A2 x6

End with
|---------|
|---------|
|---------|
|---------|
|-4-------|
|-2-------|


END